beardquest

Jan 1, 2020

Tuning: Standard

Artist: Unknown

|---0-------0-------0-------0----|
|---x-------x-------x-------x----|
|---1-------1-------1-------1----|
|---2-------2-------2-------2----|
|---3-------3-------3-------3----|
|---0-------0-------0-------0----|
|---0-------0-------0-------0----|
|---x-------x-------x-------x----|
|---1-------1-------1-------1----|
|---2-------2-------2-------2----|
|---3-------3-------3-------3----|
|---0-------0-------0-------0----|
|---0-------0-------0-------0----|
|---x-------x-------x-------x----|
|---1-------1-------1-------1----|
|---2-------2-------2-------2----|
|---3-------3-------3-------3----|
|---0-------0-------0-------0----|
|---0-------0-------0-------0----|
|---x-------x-------x-------x----|
|---1-------1-------1-------1----|
|---2-------2-------2-------2----|
|---3-------3-------3-------3----|
|---0-------0-------0-------0----|